ISO-10303-21;
HEADER;
/* Generated by software containing ST-Developer
 * from STEP Tools, Inc. (www.steptools.com) 
 */

FILE_DESCRIPTION(
/* description */ (''),
/* implementation_level */ '2;1');

FILE_NAME(
/* name */ 
'C:/Users/Justin/Desktop/CAD-CAM/IFB-10010 - CANterm 120 ohm W2B/IFB-1
0010-R00 - CANTerm.step',
/* time_stamp */ '2019-10-30T00:38:26-05:00',
/* author */ (''),
/* organization */ (''),
/* preprocessor_version */ 'ST-DEVELOPER v18',
/* originating_system */ 'Autodesk Translation Framework v8.9.1.1155',
/* authorisation */ '');

FILE_SCHEMA (('AUTOMOTIVE_DESIGN { 1 0 10303 214 3 1 1 }'));
ENDSEC;

DATA;
#10=MECHANICAL_DESIGN_GEOMETRIC_PRESENTATION_REPRESENTATION('',(#27,#28),
#389);
#11=ITEM_DEFINED_TRANSFORMATION($,$,#242,#256);
#12=ITEM_DEFINED_TRANSFORMATION($,$,#249,#257);
#13=ITEM_DEFINED_TRANSFORMATION($,$,#241,#258);
#14=(
REPRESENTATION_RELATIONSHIP($,$,#407,#406)
REPRESENTATION_RELATIONSHIP_WITH_TRANSFORMATION(#11)
SHAPE_REPRESENTATION_RELATIONSHIP()
);
#15=(
REPRESENTATION_RELATIONSHIP($,$,#408,#406)
REPRESENTATION_RELATIONSHIP_WITH_TRANSFORMATION(#12)
SHAPE_REPRESENTATION_RELATIONSHIP()
);
#16=(
REPRESENTATION_RELATIONSHIP($,$,#406,#405)
REPRESENTATION_RELATIONSHIP_WITH_TRANSFORMATION(#13)
SHAPE_REPRESENTATION_RELATIONSHIP()
);
#17=CONTEXT_DEPENDENT_SHAPE_REPRESENTATION(#14,#402);
#18=CONTEXT_DEPENDENT_SHAPE_REPRESENTATION(#15,#403);
#19=CONTEXT_DEPENDENT_SHAPE_REPRESENTATION(#16,#404);
#20=NEXT_ASSEMBLY_USAGE_OCCURRENCE('Board:1','Board:1','Board:1',#411,#412,
'Board:1');
#21=NEXT_ASSEMBLY_USAGE_OCCURRENCE('R0603:R1','R0603:R1','R0603:R1',#411,
#413,'R0603:R1');
#22=NEXT_ASSEMBLY_USAGE_OCCURRENCE('PCB Component:1','PCB Component:1',
'PCB Component:1',#410,#411,'PCB Component:1');
#23=SHAPE_REPRESENTATION_RELATIONSHIP('SRR','None',#407,#25);
#24=SHAPE_REPRESENTATION_RELATIONSHIP('SRR','None',#408,#26);
#25=ADVANCED_BREP_SHAPE_REPRESENTATION('',(#29),#387);
#26=ADVANCED_BREP_SHAPE_REPRESENTATION('',(#30),#388);
#27=STYLED_ITEM('',(#430),#29);
#28=STYLED_ITEM('',(#431),#30);
#29=MANIFOLD_SOLID_BREP('Board',#215);
#30=MANIFOLD_SOLID_BREP('R0603',#216);
#31=FACE_OUTER_BOUND('',#43,.T.);
#32=FACE_OUTER_BOUND('',#44,.T.);
#33=FACE_OUTER_BOUND('',#45,.T.);
#34=FACE_OUTER_BOUND('',#46,.T.);
#35=FACE_OUTER_BOUND('',#47,.T.);
#36=FACE_OUTER_BOUND('',#48,.T.);
#37=FACE_OUTER_BOUND('',#49,.T.);
#38=FACE_OUTER_BOUND('',#50,.T.);
#39=FACE_OUTER_BOUND('',#51,.T.);
#40=FACE_OUTER_BOUND('',#52,.T.);
#41=FACE_OUTER_BOUND('',#53,.T.);
#42=FACE_OUTER_BOUND('',#54,.T.);
#43=EDGE_LOOP('',(#143,#144,#145,#146));
#44=EDGE_LOOP('',(#147,#148,#149,#150));
#45=EDGE_LOOP('',(#151,#152,#153,#154));
#46=EDGE_LOOP('',(#155,#156,#157,#158));
#47=EDGE_LOOP('',(#159,#160,#161,#162));
#48=EDGE_LOOP('',(#163,#164,#165,#166));
#49=EDGE_LOOP('',(#167,#168,#169,#170));
#50=EDGE_LOOP('',(#171,#172,#173,#174));
#51=EDGE_LOOP('',(#175,#176,#177,#178));
#52=EDGE_LOOP('',(#179,#180,#181,#182));
#53=EDGE_LOOP('',(#183,#184,#185,#186));
#54=EDGE_LOOP('',(#187,#188,#189,#190));
#55=LINE('',#327,#79);
#56=LINE('',#329,#80);
#57=LINE('',#331,#81);
#58=LINE('',#332,#82);
#59=LINE('',#335,#83);
#60=LINE('',#337,#84);
#61=LINE('',#338,#85);
#62=LINE('',#341,#86);
#63=LINE('',#343,#87);
#64=LINE('',#344,#88);
#65=LINE('',#346,#89);
#66=LINE('',#347,#90);
#67=LINE('',#354,#91);
#68=LINE('',#356,#92);
#69=LINE('',#358,#93);
#70=LINE('',#359,#94);
#71=LINE('',#362,#95);
#72=LINE('',#364,#96);
#73=LINE('',#365,#97);
#74=LINE('',#368,#98);
#75=LINE('',#370,#99);
#76=LINE('',#371,#100);
#77=LINE('',#373,#101);
#78=LINE('',#374,#102);
#79=VECTOR('',#267,10.);
#80=VECTOR('',#268,10.);
#81=VECTOR('',#269,10.);
#82=VECTOR('',#270,10.);
#83=VECTOR('',#273,10.);
#84=VECTOR('',#274,10.);
#85=VECTOR('',#275,10.);
#86=VECTOR('',#278,10.);
#87=VECTOR('',#279,10.);
#88=VECTOR('',#280,10.);
#89=VECTOR('',#283,10.);
#90=VECTOR('',#284,10.);
#91=VECTOR('',#293,10.);
#92=VECTOR('',#294,10.);
#93=VECTOR('',#295,10.);
#94=VECTOR('',#296,10.);
#95=VECTOR('',#299,10.);
#96=VECTOR('',#300,10.);
#97=VECTOR('',#301,10.);
#98=VECTOR('',#304,10.);
#99=VECTOR('',#305,10.);
#100=VECTOR('',#306,10.);
#101=VECTOR('',#309,10.);
#102=VECTOR('',#310,10.);
#103=VERTEX_POINT('',#325);
#104=VERTEX_POINT('',#326);
#105=VERTEX_POINT('',#328);
#106=VERTEX_POINT('',#330);
#107=VERTEX_POINT('',#334);
#108=VERTEX_POINT('',#336);
#109=VERTEX_POINT('',#340);
#110=VERTEX_POINT('',#342);
#111=VERTEX_POINT('',#352);
#112=VERTEX_POINT('',#353);
#113=VERTEX_POINT('',#355);
#114=VERTEX_POINT('',#357);
#115=VERTEX_POINT('',#361);
#116=VERTEX_POINT('',#363);
#117=VERTEX_POINT('',#367);
#118=VERTEX_POINT('',#369);
#119=EDGE_CURVE('',#103,#104,#55,.T.);
#120=EDGE_CURVE('',#104,#105,#56,.T.);
#121=EDGE_CURVE('',#106,#105,#57,.T.);
#122=EDGE_CURVE('',#103,#106,#58,.T.);
#123=EDGE_CURVE('',#107,#103,#59,.T.);
#124=EDGE_CURVE('',#108,#106,#60,.T.);
#125=EDGE_CURVE('',#107,#108,#61,.T.);
#126=EDGE_CURVE('',#109,#107,#62,.T.);
#127=EDGE_CURVE('',#110,#108,#63,.T.);
#128=EDGE_CURVE('',#109,#110,#64,.T.);
#129=EDGE_CURVE('',#104,#109,#65,.T.);
#130=EDGE_CURVE('',#105,#110,#66,.T.);
#131=EDGE_CURVE('',#111,#112,#67,.T.);
#132=EDGE_CURVE('',#112,#113,#68,.T.);
#133=EDGE_CURVE('',#114,#113,#69,.T.);
#134=EDGE_CURVE('',#111,#114,#70,.T.);
#135=EDGE_CURVE('',#115,#111,#71,.T.);
#136=EDGE_CURVE('',#116,#114,#72,.T.);
#137=EDGE_CURVE('',#115,#116,#73,.T.);
#138=EDGE_CURVE('',#117,#115,#74,.T.);
#139=EDGE_CURVE('',#118,#116,#75,.T.);
#140=EDGE_CURVE('',#117,#118,#76,.T.);
#141=EDGE_CURVE('',#112,#117,#77,.T.);
#142=EDGE_CURVE('',#113,#118,#78,.T.);
#143=ORIENTED_EDGE('',*,*,#119,.T.);
#144=ORIENTED_EDGE('',*,*,#120,.T.);
#145=ORIENTED_EDGE('',*,*,#121,.F.);
#146=ORIENTED_EDGE('',*,*,#122,.F.);
#147=ORIENTED_EDGE('',*,*,#123,.T.);
#148=ORIENTED_EDGE('',*,*,#122,.T.);
#149=ORIENTED_EDGE('',*,*,#124,.F.);
#150=ORIENTED_EDGE('',*,*,#125,.F.);
#151=ORIENTED_EDGE('',*,*,#126,.T.);
#152=ORIENTED_EDGE('',*,*,#125,.T.);
#153=ORIENTED_EDGE('',*,*,#127,.F.);
#154=ORIENTED_EDGE('',*,*,#128,.F.);
#155=ORIENTED_EDGE('',*,*,#129,.T.);
#156=ORIENTED_EDGE('',*,*,#128,.T.);
#157=ORIENTED_EDGE('',*,*,#130,.F.);
#158=ORIENTED_EDGE('',*,*,#120,.F.);
#159=ORIENTED_EDGE('',*,*,#130,.T.);
#160=ORIENTED_EDGE('',*,*,#127,.T.);
#161=ORIENTED_EDGE('',*,*,#124,.T.);
#162=ORIENTED_EDGE('',*,*,#121,.T.);
#163=ORIENTED_EDGE('',*,*,#129,.F.);
#164=ORIENTED_EDGE('',*,*,#119,.F.);
#165=ORIENTED_EDGE('',*,*,#123,.F.);
#166=ORIENTED_EDGE('',*,*,#126,.F.);
#167=ORIENTED_EDGE('',*,*,#131,.T.);
#168=ORIENTED_EDGE('',*,*,#132,.T.);
#169=ORIENTED_EDGE('',*,*,#133,.F.);
#170=ORIENTED_EDGE('',*,*,#134,.F.);
#171=ORIENTED_EDGE('',*,*,#135,.T.);
#172=ORIENTED_EDGE('',*,*,#134,.T.);
#173=ORIENTED_EDGE('',*,*,#136,.F.);
#174=ORIENTED_EDGE('',*,*,#137,.F.);
#175=ORIENTED_EDGE('',*,*,#138,.T.);
#176=ORIENTED_EDGE('',*,*,#137,.T.);
#177=ORIENTED_EDGE('',*,*,#139,.F.);
#178=ORIENTED_EDGE('',*,*,#140,.F.);
#179=ORIENTED_EDGE('',*,*,#141,.T.);
#180=ORIENTED_EDGE('',*,*,#140,.T.);
#181=ORIENTED_EDGE('',*,*,#142,.F.);
#182=ORIENTED_EDGE('',*,*,#132,.F.);
#183=ORIENTED_EDGE('',*,*,#142,.T.);
#184=ORIENTED_EDGE('',*,*,#139,.T.);
#185=ORIENTED_EDGE('',*,*,#136,.T.);
#186=ORIENTED_EDGE('',*,*,#133,.T.);
#187=ORIENTED_EDGE('',*,*,#141,.F.);
#188=ORIENTED_EDGE('',*,*,#131,.F.);
#189=ORIENTED_EDGE('',*,*,#135,.F.);
#190=ORIENTED_EDGE('',*,*,#138,.F.);
#191=PLANE('',#243);
#192=PLANE('',#244);
#193=PLANE('',#245);
#194=PLANE('',#246);
#195=PLANE('',#247);
#196=PLANE('',#248);
#197=PLANE('',#250);
#198=PLANE('',#251);
#199=PLANE('',#252);
#200=PLANE('',#253);
#201=PLANE('',#254);
#202=PLANE('',#255);
#203=ADVANCED_FACE('',(#31),#191,.T.);
#204=ADVANCED_FACE('',(#32),#192,.T.);
#205=ADVANCED_FACE('',(#33),#193,.T.);
#206=ADVANCED_FACE('',(#34),#194,.T.);
#207=ADVANCED_FACE('',(#35),#195,.T.);
#208=ADVANCED_FACE('',(#36),#196,.F.);
#209=ADVANCED_FACE('',(#37),#197,.T.);
#210=ADVANCED_FACE('',(#38),#198,.T.);
#211=ADVANCED_FACE('',(#39),#199,.T.);
#212=ADVANCED_FACE('',(#40),#200,.T.);
#213=ADVANCED_FACE('',(#41),#201,.T.);
#214=ADVANCED_FACE('',(#42),#202,.F.);
#215=CLOSED_SHELL('',(#203,#204,#205,#206,#207,#208));
#216=CLOSED_SHELL('',(#209,#210,#211,#212,#213,#214));
#217=DERIVED_UNIT_ELEMENT(#221,1.);
#218=DERIVED_UNIT_ELEMENT(#391,3.);
#219=DERIVED_UNIT_ELEMENT(#221,1.);
#220=DERIVED_UNIT_ELEMENT(#391,3.);
#221=(
MASS_UNIT()
NAMED_UNIT(*)
SI_UNIT(.KILO.,.GRAM.)
);
#222=DERIVED_UNIT((#217,#218));
#223=DERIVED_UNIT((#219,#220));
#224=MEASURE_REPRESENTATION_ITEM('density measure',
POSITIVE_RATIO_MEASURE(7850.),#222);
#225=MEASURE_REPRESENTATION_ITEM('density measure',
POSITIVE_RATIO_MEASURE(7850.),#223);
#226=PROPERTY_DEFINITION_REPRESENTATION(#236,#230);
#227=PROPERTY_DEFINITION_REPRESENTATION(#237,#231);
#228=PROPERTY_DEFINITION_REPRESENTATION(#238,#232);
#229=PROPERTY_DEFINITION_REPRESENTATION(#239,#233);
#230=REPRESENTATION('material name',(#234),#387);
#231=REPRESENTATION('density',(#224),#387);
#232=REPRESENTATION('material name',(#235),#388);
#233=REPRESENTATION('density',(#225),#388);
#234=DESCRIPTIVE_REPRESENTATION_ITEM('Steel','Steel');
#235=DESCRIPTIVE_REPRESENTATION_ITEM('Steel','Steel');
#236=PROPERTY_DEFINITION('material property','material name',#412);
#237=PROPERTY_DEFINITION('material property','density of part',#412);
#238=PROPERTY_DEFINITION('material property','material name',#413);
#239=PROPERTY_DEFINITION('material property','density of part',#413);
#240=AXIS2_PLACEMENT_3D('placement',#321,#259,#260);
#241=AXIS2_PLACEMENT_3D('placement',#322,#261,#262);
#242=AXIS2_PLACEMENT_3D('placement',#323,#263,#264);
#243=AXIS2_PLACEMENT_3D('',#324,#265,#266);
#244=AXIS2_PLACEMENT_3D('',#333,#271,#272);
#245=AXIS2_PLACEMENT_3D('',#339,#276,#277);
#246=AXIS2_PLACEMENT_3D('',#345,#281,#282);
#247=AXIS2_PLACEMENT_3D('',#348,#285,#286);
#248=AXIS2_PLACEMENT_3D('',#349,#287,#288);
#249=AXIS2_PLACEMENT_3D('placement',#350,#289,#290);
#250=AXIS2_PLACEMENT_3D('',#351,#291,#292);
#251=AXIS2_PLACEMENT_3D('',#360,#297,#298);
#252=AXIS2_PLACEMENT_3D('',#366,#302,#303);
#253=AXIS2_PLACEMENT_3D('',#372,#307,#308);
#254=AXIS2_PLACEMENT_3D('',#375,#311,#312);
#255=AXIS2_PLACEMENT_3D('',#376,#313,#314);
#256=AXIS2_PLACEMENT_3D('',#377,#315,#316);
#257=AXIS2_PLACEMENT_3D('',#378,#317,#318);
#258=AXIS2_PLACEMENT_3D('',#379,#319,#320);
#259=DIRECTION('axis',(0.,0.,1.));
#260=DIRECTION('refdir',(1.,0.,0.));
#261=DIRECTION('axis',(0.,0.,1.));
#262=DIRECTION('refdir',(1.,0.,0.));
#263=DIRECTION('axis',(0.,0.,1.));
#264=DIRECTION('refdir',(1.,0.,0.));
#265=DIRECTION('center_axis',(0.,1.,0.));
#266=DIRECTION('ref_axis',(-1.,0.,0.));
#267=DIRECTION('',(-1.,0.,0.));
#268=DIRECTION('',(0.,0.,1.));
#269=DIRECTION('',(-1.,0.,0.));
#270=DIRECTION('',(0.,0.,1.));
#271=DIRECTION('center_axis',(1.,0.,0.));
#272=DIRECTION('ref_axis',(0.,1.,0.));
#273=DIRECTION('',(0.,1.,0.));
#274=DIRECTION('',(0.,1.,0.));
#275=DIRECTION('',(0.,0.,1.));
#276=DIRECTION('center_axis',(0.,-1.,0.));
#277=DIRECTION('ref_axis',(1.,0.,0.));
#278=DIRECTION('',(1.,0.,0.));
#279=DIRECTION('',(1.,0.,0.));
#280=DIRECTION('',(0.,0.,1.));
#281=DIRECTION('center_axis',(-1.,0.,0.));
#282=DIRECTION('ref_axis',(0.,-1.,0.));
#283=DIRECTION('',(0.,-1.,0.));
#284=DIRECTION('',(0.,-1.,0.));
#285=DIRECTION('center_axis',(0.,0.,1.));
#286=DIRECTION('ref_axis',(1.,0.,0.));
#287=DIRECTION('center_axis',(0.,0.,1.));
#288=DIRECTION('ref_axis',(1.,0.,0.));
#289=DIRECTION('axis',(0.,0.,1.));
#290=DIRECTION('refdir',(1.,0.,0.));
#291=DIRECTION('center_axis',(0.,1.,0.));
#292=DIRECTION('ref_axis',(-1.,0.,0.));
#293=DIRECTION('',(-1.,0.,0.));
#294=DIRECTION('',(0.,0.,1.));
#295=DIRECTION('',(-1.,0.,0.));
#296=DIRECTION('',(0.,0.,1.));
#297=DIRECTION('center_axis',(1.,-1.60622544071927E-16,0.));
#298=DIRECTION('ref_axis',(1.60622544071927E-16,1.,0.));
#299=DIRECTION('',(1.60622544071927E-16,1.,0.));
#300=DIRECTION('',(1.60622544071927E-16,1.,0.));
#301=DIRECTION('',(0.,0.,1.));
#302=DIRECTION('center_axis',(0.,-1.,0.));
#303=DIRECTION('ref_axis',(1.,0.,0.));
#304=DIRECTION('',(1.,0.,0.));
#305=DIRECTION('',(1.,0.,0.));
#306=DIRECTION('',(0.,0.,1.));
#307=DIRECTION('center_axis',(-1.,1.60622544071927E-16,0.));
#308=DIRECTION('ref_axis',(-1.60622544071927E-16,-1.,0.));
#309=DIRECTION('',(-1.60622544071927E-16,-1.,0.));
#310=DIRECTION('',(-1.60622544071927E-16,-1.,0.));
#311=DIRECTION('center_axis',(0.,0.,1.));
#312=DIRECTION('ref_axis',(1.,0.,0.));
#313=DIRECTION('center_axis',(0.,0.,1.));
#314=DIRECTION('ref_axis',(1.,0.,0.));
#315=DIRECTION('',(0.,0.,1.));
#316=DIRECTION('',(1.,0.,0.));
#317=DIRECTION('',(0.,0.,1.));
#318=DIRECTION('',(-1.,3.67381906146713E-16,0.));
#319=DIRECTION('',(0.,0.,1.));
#320=DIRECTION('',(1.,0.,0.));
#321=CARTESIAN_POINT('',(0.,0.,0.));
#322=CARTESIAN_POINT('',(0.,0.,0.));
#323=CARTESIAN_POINT('',(0.,0.,0.));
#324=CARTESIAN_POINT('Origin',(6.35,9.525,0.));
#325=CARTESIAN_POINT('',(6.35,9.525,0.));
#326=CARTESIAN_POINT('',(0.,9.525,0.));
#327=CARTESIAN_POINT('',(6.35,9.525,0.));
#328=CARTESIAN_POINT('',(0.,9.525,1.57));
#329=CARTESIAN_POINT('',(0.,9.525,0.));
#330=CARTESIAN_POINT('',(6.35,9.525,1.57));
#331=CARTESIAN_POINT('',(6.35,9.525,1.57));
#332=CARTESIAN_POINT('',(6.35,9.525,0.));
#333=CARTESIAN_POINT('Origin',(6.35,0.,0.));
#334=CARTESIAN_POINT('',(6.35,0.,0.));
#335=CARTESIAN_POINT('',(6.35,0.,0.));
#336=CARTESIAN_POINT('',(6.35,0.,1.57));
#337=CARTESIAN_POINT('',(6.35,0.,1.57));
#338=CARTESIAN_POINT('',(6.35,0.,0.));
#339=CARTESIAN_POINT('Origin',(0.,0.,0.));
#340=CARTESIAN_POINT('',(0.,0.,0.));
#341=CARTESIAN_POINT('',(0.,0.,0.));
#342=CARTESIAN_POINT('',(0.,0.,1.57));
#343=CARTESIAN_POINT('',(0.,0.,1.57));
#344=CARTESIAN_POINT('',(0.,0.,0.));
#345=CARTESIAN_POINT('Origin',(0.,9.525,0.));
#346=CARTESIAN_POINT('',(0.,9.525,0.));
#347=CARTESIAN_POINT('',(0.,9.525,1.57));
#348=CARTESIAN_POINT('Origin',(3.175,4.7625,1.57));
#349=CARTESIAN_POINT('Origin',(3.175,4.7625,0.));
#350=CARTESIAN_POINT('',(0.,0.,0.));
#351=CARTESIAN_POINT('Origin',(0.838,0.432,0.));
#352=CARTESIAN_POINT('',(0.838,0.432,0.));
#353=CARTESIAN_POINT('',(-0.838,0.432,0.));
#354=CARTESIAN_POINT('',(0.838,0.432,0.));
#355=CARTESIAN_POINT('',(-0.838,0.432,0.1));
#356=CARTESIAN_POINT('',(-0.838,0.432,0.));
#357=CARTESIAN_POINT('',(0.838,0.432,0.1));
#358=CARTESIAN_POINT('',(0.838,0.432,0.1));
#359=CARTESIAN_POINT('',(0.838,0.432,0.));
#360=CARTESIAN_POINT('Origin',(0.838,-0.432,0.));
#361=CARTESIAN_POINT('',(0.838,-0.432,0.));
#362=CARTESIAN_POINT('',(0.838,-0.432,0.));
#363=CARTESIAN_POINT('',(0.838,-0.432,0.1));
#364=CARTESIAN_POINT('',(0.838,-0.432,0.1));
#365=CARTESIAN_POINT('',(0.838,-0.432,0.));
#366=CARTESIAN_POINT('Origin',(-0.838,-0.432,0.));
#367=CARTESIAN_POINT('',(-0.838,-0.432,0.));
#368=CARTESIAN_POINT('',(-0.838,-0.432,0.));
#369=CARTESIAN_POINT('',(-0.838,-0.432,0.1));
#370=CARTESIAN_POINT('',(-0.838,-0.432,0.1));
#371=CARTESIAN_POINT('',(-0.838,-0.432,0.));
#372=CARTESIAN_POINT('Origin',(-0.838,0.432,0.));
#373=CARTESIAN_POINT('',(-0.838,0.432,0.));
#374=CARTESIAN_POINT('',(-0.838,0.432,0.1));
#375=CARTESIAN_POINT('Origin',(-2.77555756156289E-16,0.,0.1));
#376=CARTESIAN_POINT('Origin',(-2.77555756156289E-16,0.,0.));
#377=CARTESIAN_POINT('',(0.,0.,0.));
#378=CARTESIAN_POINT('',(3.175,7.62,1.57));
#379=CARTESIAN_POINT('',(0.,0.,0.));
#380=UNCERTAINTY_MEASURE_WITH_UNIT(LENGTH_MEASURE(0.01),#390,
'DISTANCE_ACCURACY_VALUE',
'Maximum model space distance between geometric entities at asserted c
onnectivities');
#381=UNCERTAINTY_MEASURE_WITH_UNIT(LENGTH_MEASURE(0.01),#390,
'DISTANCE_ACCURACY_VALUE',
'Maximum model space distance between geometric entities at asserted c
onnectivities');
#382=UNCERTAINTY_MEASURE_WITH_UNIT(LENGTH_MEASURE(0.01),#390,
'DISTANCE_ACCURACY_VALUE',
'Maximum model space distance between geometric entities at asserted c
onnectivities');
#383=UNCERTAINTY_MEASURE_WITH_UNIT(LENGTH_MEASURE(0.01),#390,
'DISTANCE_ACCURACY_VALUE',
'Maximum model space distance between geometric entities at asserted c
onnectivities');
#384=UNCERTAINTY_MEASURE_WITH_UNIT(LENGTH_MEASURE(0.01),#390,
'DISTANCE_ACCURACY_VALUE',
'Maximum model space distance between geometric entities at asserted c
onnectivities');
#385=(
GEOMETRIC_REPRESENTATION_CONTEXT(3)
GLOBAL_UNCERTAINTY_ASSIGNED_CONTEXT((#380))
GLOBAL_UNIT_ASSIGNED_CONTEXT((#390,#392,#393))
REPRESENTATION_CONTEXT('','3D')
);
#386=(
GEOMETRIC_REPRESENTATION_CONTEXT(3)
GLOBAL_UNCERTAINTY_ASSIGNED_CONTEXT((#381))
GLOBAL_UNIT_ASSIGNED_CONTEXT((#390,#392,#393))
REPRESENTATION_CONTEXT('','3D')
);
#387=(
GEOMETRIC_REPRESENTATION_CONTEXT(3)
GLOBAL_UNCERTAINTY_ASSIGNED_CONTEXT((#382))
GLOBAL_UNIT_ASSIGNED_CONTEXT((#390,#392,#393))
REPRESENTATION_CONTEXT('','3D')
);
#388=(
GEOMETRIC_REPRESENTATION_CONTEXT(3)
GLOBAL_UNCERTAINTY_ASSIGNED_CONTEXT((#383))
GLOBAL_UNIT_ASSIGNED_CONTEXT((#390,#392,#393))
REPRESENTATION_CONTEXT('','3D')
);
#389=(
GEOMETRIC_REPRESENTATION_CONTEXT(3)
GLOBAL_UNCERTAINTY_ASSIGNED_CONTEXT((#384))
GLOBAL_UNIT_ASSIGNED_CONTEXT((#390,#392,#393))
REPRESENTATION_CONTEXT('','3D')
);
#390=(
LENGTH_UNIT()
NAMED_UNIT(*)
SI_UNIT(.MILLI.,.METRE.)
);
#391=(
LENGTH_UNIT()
NAMED_UNIT(*)
SI_UNIT($,.METRE.)
);
#392=(
NAMED_UNIT(*)
PLANE_ANGLE_UNIT()
SI_UNIT($,.RADIAN.)
);
#393=(
NAMED_UNIT(*)
SI_UNIT($,.STERADIAN.)
SOLID_ANGLE_UNIT()
);
#394=SHAPE_DEFINITION_REPRESENTATION(#398,#405);
#395=SHAPE_DEFINITION_REPRESENTATION(#399,#406);
#396=SHAPE_DEFINITION_REPRESENTATION(#400,#407);
#397=SHAPE_DEFINITION_REPRESENTATION(#401,#408);
#398=PRODUCT_DEFINITION_SHAPE('',$,#410);
#399=PRODUCT_DEFINITION_SHAPE('',$,#411);
#400=PRODUCT_DEFINITION_SHAPE('',$,#412);
#401=PRODUCT_DEFINITION_SHAPE('',$,#413);
#402=PRODUCT_DEFINITION_SHAPE($,$,#20);
#403=PRODUCT_DEFINITION_SHAPE($,$,#21);
#404=PRODUCT_DEFINITION_SHAPE($,$,#22);
#405=SHAPE_REPRESENTATION('',(#240,#258),#385);
#406=SHAPE_REPRESENTATION('',(#241,#256,#257),#386);
#407=SHAPE_REPRESENTATION('',(#242),#387);
#408=SHAPE_REPRESENTATION('',(#249),#388);
#409=PRODUCT_DEFINITION_CONTEXT('part definition',#423,'design');
#410=PRODUCT_DEFINITION('IFB-10010-R00 - CAN Term',
'IFB-10010-R00 - CAN Term v1',#414,#409);
#411=PRODUCT_DEFINITION('PCB Component','PCB Component',#415,#409);
#412=PRODUCT_DEFINITION('Board','Board',#416,#409);
#413=PRODUCT_DEFINITION('120','R0603',#417,#409);
#414=PRODUCT_DEFINITION_FORMATION('',$,#425);
#415=PRODUCT_DEFINITION_FORMATION('',$,#426);
#416=PRODUCT_DEFINITION_FORMATION('',$,#427);
#417=PRODUCT_DEFINITION_FORMATION('',$,#428);
#418=PRODUCT_RELATED_PRODUCT_CATEGORY('IFB-10010-R00 - CAN Term v1',
'IFB-10010-R00 - CAN Term v1',(#425));
#419=PRODUCT_RELATED_PRODUCT_CATEGORY('PCB Component','PCB Component',(#426));
#420=PRODUCT_RELATED_PRODUCT_CATEGORY('Board','Board',(#427));
#421=PRODUCT_RELATED_PRODUCT_CATEGORY('R0603','R0603',(#428));
#422=APPLICATION_PROTOCOL_DEFINITION('international standard',
'automotive_design',2009,#423);
#423=APPLICATION_CONTEXT(
'Core Data for Automotive Mechanical Design Process');
#424=PRODUCT_CONTEXT('part definition',#423,'mechanical');
#425=PRODUCT('IFB-10010-R00 - CAN Term','IFB-10010-R00 - CAN Term v1',$,
(#424));
#426=PRODUCT('PCB Component','PCB Component',$,(#424));
#427=PRODUCT('Board','Board',$,(#424));
#428=PRODUCT('120','R0603',$,(#424));
#429=PRESENTATION_STYLE_ASSIGNMENT((#432));
#430=PRESENTATION_STYLE_ASSIGNMENT((#433));
#431=PRESENTATION_STYLE_ASSIGNMENT((#434));
#432=SURFACE_STYLE_USAGE(.BOTH.,#435);
#433=SURFACE_STYLE_USAGE(.BOTH.,#436);
#434=SURFACE_STYLE_USAGE(.BOTH.,#437);
#435=SURFACE_SIDE_STYLE('',(#438));
#436=SURFACE_SIDE_STYLE('',(#439));
#437=SURFACE_SIDE_STYLE('',(#440));
#438=SURFACE_STYLE_FILL_AREA(#441);
#439=SURFACE_STYLE_FILL_AREA(#442);
#440=SURFACE_STYLE_FILL_AREA(#443);
#441=FILL_AREA_STYLE('Steel - Satin',(#444));
#442=FILL_AREA_STYLE('Opaque(120,110,70)',(#445));
#443=FILL_AREA_STYLE('Opaque(230,140,20)',(#446));
#444=FILL_AREA_STYLE_COLOUR('Steel - Satin',#447);
#445=FILL_AREA_STYLE_COLOUR('Opaque(120,110,70)',#448);
#446=FILL_AREA_STYLE_COLOUR('Opaque(230,140,20)',#449);
#447=COLOUR_RGB('Steel - Satin',0.627450980392157,0.627450980392157,0.627450980392157);
#448=COLOUR_RGB('Opaque(120,110,70)',0.470588235294118,0.431372549019608,
0.274509803921569);
#449=COLOUR_RGB('Opaque(230,140,20)',0.901960784313726,0.549019607843137,
0.0784313725490196);
ENDSEC;
END-ISO-10303-21;
